February 10, 2009

Pretty Boy Chords- M2M

Song: Pretty Boy
Bang: M2M
Language: English

INTRO: C, Am, F, Am, F, G

VERSE 1:
(C)I lie awake at night
See (Am)things in black and white
I've (F)only got you in(G)side my mind
You (Dm)know you have made me (G)blind

VERSE 2:
(C)I lie awake and pray (Riff1)
(Am)That you will look my way
I (F)have all this longing (G)in my heart
I (Dm)knew it right from the (G)start (Riff 2)

CHORUS:
(F)Oh (G)my (C)pretty pretty boy I (G)love you
Like I (Am)never ever loved no (C)one before you
(F)Pretty pretty boy of (C)mine
Just (G)tell me you (Dm)love me (Riff3)(G7)too

(F)Oh (G)my (C)pretty pretty boy I (G)need you
Oh my (Am)pretty pretty boy I (C)do
Let me in(F)side make me (C)stay (Dm)right be(C)side you

INTRO 2: C, Am, F, G

VERSE 3:
(C)I used to write your name(Riff4)
And (Am)put it in a frame
(F)And sometimes I think I (G)hear you call
(Dm)Right from my bedroom (G)wall (Riff5)

VERSE 4:
(C)You stay a little while (Riff6)
And (Am)touch me with your smile
(F)what can I say to (G)make you mine
(Dm)To reach out for you in (G)time

CHORUS:
(F)Oh (G)my (C)pretty pretty boy I (G)love you
Like I (Am)never ever loved no (C)one before you
(F)Pretty pretty boy of (C)mine
Just (G)tell me you (Dm)love me (Riff3)(G7) too (Tell me you love me too...)

(F)Oh (G)my (C)pretty pretty boy I (G)need you
Oh my (Am)pretty pretty boy I (C)do
Let me in(F)side (Let me Inside)
(C)Make me (Dm)stay (Make me Stay) (G7)(Riff7) right be(C Strum)side you

BRIDGE:
Fm(Strum) C(Strum) G(Strum) Gdim(Strum) Am(Strum X3)
Oh (Fm)pretty boy, (Fm)pretty boy, (Am)pretty boy
(G)say you love me too

CHORUS:
(F)Oh (G)my (C)pretty pretty boy I (G)love you
Like I (Am)never ever loved no (C)one before you
(F)Pretty pretty boy of (C)mine
Just (G)tell me you (Dm)love me (Riff3)(G7) too (Tell me you love me too...)

(F)Oh (G)my (C)pretty pretty boy I (G)need you
Oh my (Am)pretty pretty boy I (C)do
Let me in(F)side (Let me Inside)
(C)Make me (Dm)stay (Make me Stay) (G7)(Riff7) right be(C)(Strum)side you

TABS:

Intro:

e-----1--(1)h2--1------^^^-----^^^^|
b------------------4--2----4--2----|
g--1-------------------------------|
d----------------------------------|
a----------------------------------|
E----------------------------------|

e----1--(1)h2--1------^^^------------------|
b-----------------4--2----1----------------|
g--1-------------------------3-----1h3--1--|
d-------------------------------3----------|
a------------------------------------------|
E------------------------------------------|


Riff1:
e------------|
b------------|
g---4h6---4~-|
d-------6----|
a-6----------|
E------------|

Riff2:
e-4^2--------|
b-----4~-----|
g------------|
d------------|
a------------|
E------------|

Riff3:
e-2-1--------|
b-----2-2/4~-|
g------------|
d------------|
a------------|
E------------|


INTRO 2:

e----1--(1)h2--1------^^^------------------|
b-----------------4--2----1----------------|
g--1-------------------------3-----1h3--1~-|
d-------------------------------3----------|
a------------------------------------------|
E------------------------------------------|


Riff4:
e-------------------|
b-------------------|
g---4h6---4-4h6p4---|
d-------6---------6-|
a-6-----------------|
E-------------------|

Riff5:
e----10h13----11/9--|
b----------14-------|
g-13----------------|
d-------------------|
a-------------------|
E-------------------|

Riff6:
e-----4-----4~----|
b-6-7---6/7-------|
g-----------------|
d-----------------|
a-----------------|
E-----------------|

Riff7:
e-----4h6-4~------|
b-----------------|
g-----------------|
d-----------------|
a-----------------|
E-----------------|

Bridge:

e-1h2-4h5~--5p4-2-4~--1-2-4-4-2-1----------|
b---------------------------------4-2-4/6--|
g------------------------------------------|
d------------------------------------------|
a------------------------------------------|
E------------------------------------------|

e-1h2-4h5~--5p4-2-4~-----------------------|
b---------------------2-4--6-6p4-6-7-6h4---|
g------------------------------------------|
d------------------------------------------|
a------------------------------------------|
E------------------------------------------|
say you love me too...


Chorus Melody:

e--------------------------------------------------
b--------------------14p13-13-9~----9--------------
g--6-8--10-8-10-8-10-------------10---10-8-10-8-10-
d--------------------------------------------------
a--------------------------------------------------
E--------------------------------------------------

e--------------------------------------------------------
b-11p9-9------------------------7h6-6~---6-4----6-7------
g--------10p8-8p6-6~--6-5-6-5-6--------6------6-----6/8~-
d--------------------------------------------------------
a--------------------------------------------------------
E--------------------------------------------------------

e--------------------9h8-8------------------------
b--------------------------9~-----9---------------
g--6-8--10-8-10-8-10-----------10----10-8-10-8-10-
d-------------------------------------------------
a-------------------------------------------------
E-------------------------------------------------

e-------------------------------------------------
b--11h9-9~---------------6h4-4~--6h4-4-2-4h2-2~---
g-----------10-8/6-6~--6--------------------------
d-------------------------------------------------
a-------------------------------------------------
E-------------------------------------------------



Do you like this post?

Search GUITAR CHORD WORLD

Top Chart