January 6, 2009

Tere Bina Zindagi Se Koi- Dil Vil Pyar Vyar

(Dm)Tere bina zindagi se (F)koi
(Dm)shikawa to (A#)nahi (A)shikawa nahi
(C)shikawa nahi, (Dm)shikawa nahi

(Dm)Tere bina zindagi bhi (F)lekin
(Dm)zindagi to (A#)nahi, (A)zindagi nahi,
(C)zindagi nahi, (Dm)zindagi nahi

(Dm)Tum jo kahedo to (A#)aaj ki raat
(A)chaand doobega (G)nahi
(C)Raat ko rok (Dm)lo

(C)Raat ki baat hai, (G)aur zindagi
(Dm)baaki (A)to (Dm)nahi

(Dm)Tere bina zindagi se (F)koi
(Dm)shikawa to (A#)nahi (A)shikawa nahi
(C)shikawa nahi, (Dm)shikawa nahi

Tabs::

Tere bina zindagi se...
e|-----8-10-8---8---------------------------------------------------------
B|-8-9--------9---9-8-8-8---11-11-11-8-8-8-/11-11-11-/9-9-9-/8-8---8-8----
G|------------------------8--------------------------------------8-----10-
D|------------------------------------------------------------------------
A|------------------------------------------------------------------------
E|------------------------------------------------------------------------

...shikva nahi, shikva nahi
----------------------------------||
----8-9-9-/11-11-11-8----8-h9-9-8-||
-10-------------------10----------||
----------------------------------||
----------------------------------||
----------------------------------||

Antara:
Kaash aisa ho...
e|-8-8-7-7-7-h8-8-8-6-6-6-h8-8-8----------8-8-------8-12-10-10-10--------10-8-8-8-/10-
B|-------------------------------10-10-10-----10-10---------------11-11----
G|-------------------------------------------------------------------------
D|-------------------------------------------------------------------------
A|-------------------------------------------------------------------------
E|-------------------------------------------------------------------------

...kami to nahi
-10----------8--------------------------------8-||
----11-11-11---10-10-10----8-10----8-10-8-8-9---||
------------------------10------10--------------||
------------------------------------------------||
------------------------------------------------||
------------------------------------------------||

Do you like this song?

Search GUITAR CHORD WORLD