December 31, 2008

Tujh Main Rab Dikhta Hai Chords- Rab Ne Bana Di Jodi

Song: Tujh Main Rab Dikhta Hai
Movie: Rab Ne Bana Di Jodi
Language: Hindi
Country: India

Tu hi to (C)jannat meri, Tu hi (Dm)mera junoon
Tu hi to (C)mannat meri, Tu hi rooh (Dm)ka sukoon

Tu hi (C)aakhion ki (Dm)thandak
tu hi (C)dil ki hai (Dm)dastak
Aur (C)kuch na janu mein
bas (Dm)itna hi (C)jaanu

(Dm)Tujh Main Rab (C)Dikhta Hai
(A#)Yaara Main (C)Kyaaa karun
(Dm)Tujh Main Rab (C)Dikhta Hai
guitarchordworld.net
(A#)Yaara Main (C)Kyaaa karun
(Dm)Sajde Sar (C)Jhukta Hai
(A#)Yaara Main (C)Kyaaa karun
(Dm)Tujh Main Rab (C)Dikhta Hai
(A#)Yaara Main (C)Kyaaa karun

(Dm)Kaisi hai yeh (C)doori
(Dm) kaisi maj(C)boori
Meine (Dm)nazron se (C)tujhe choo (A#)liya
Oh ho ho
(Dm)Kabhi teri (C)khusboo
(Dm)Kabhi teri (C)baatein
Bin (Dm)mange yeh (C)jahan pa (A#)liya

Tu hi (C)dil ki hai (Dm)raunak
Tu hi (C)janmo ki (Dm)daulat
Aur (C)kuch na janoo
Bas (Dm)itna hi (C)janoo

(Dm)Tujh Main Rab (C)Dikhta Hai
(A#)Yaara Main (C)Kyaaa karun
(Dm)Tujh Main Rab (C)Dikhta Hai
guitarchordworld.net
(A#)Yaara Main (C)Kyaaa karun
(Dm)Sajde Sar (C)Jhukta Hai
(A#)Yaara Main (C)Kyaaa karun
(Dm)Tujh Main Rab (C)Dikhta Hai
(A#)Yaara Main (C)Kyaaa karun

Vasdi vasdi vasdi, dil di dil vich vasdi
Nasdi nasdi nasdi, dil ro ve te nasdi
Rab Ne… Bana Di Jodi…..haiiiiii
Vasdi vasdi vasdi, dil di dil vich vasdi
Nasdi nasdi nasdi, dil ro ve te nasdi

(Dm)Cham cham (C)aaye,
(Dm)mujhe (C)tarsaye
(Dm)Tera saaya (C)ched ke (A#)chumta
Oh ho ho…
(Dm)tu jo (C)muskaye
(Dm)Tu jo (C)sharmaye
Jaise (Dm)mera hai (C)khuda (A#)jhumta

Tu hi (C)meri hai (Dm)barkat,
tu hi (C)meri (Dm)ibadat
Aur (C)kuch na janu
bas (Dm)itna hi (C)janu

(Dm)Tujh Main Rab (C)Dikhta Hai
(A#)Yaara Main (C)Kyaaa karun
(Dm)Tujh Main Rab (C)Dikhta Hai
guitarchordworld.net
(A#)Yaara Main (C)Kyaaa karun
(Dm)Sajde Sar (C)Jhukta Hai
(A#)Yaara Main (C)Kyaaa karun
(Dm)Tujh Main Rab (C)Dikhta Hai
(A#)Yaara Main (C)Kyaaa karun

Vasdi vasdi vasdi, dil di dil vich vasdi
Nasdi nasdi nasdi, dil ro ve te nasdi
Rab Ne Bana Di Jodi.. haiiiiii

Tabs::

Tujh Main Rab Dikhta Hai
E---------1----3-1--0--0-------
B---------------------------3-1--
G----2---------------------------

Yaara Main Kyaaa kerun
E--------1-1----1-3-1---3-0--
B------------------------------3--
G---3------------------------

Tujh Main Rab Dikhta Hai
E---------1----3-1—0—0--------
B----------------------------3-1-
G----2---------------------------

Yaara Main Kyaaa kerun
E--------1-1----1-3-1---3-0--
B-----------------------------3--
G---3------------------------

Sajde Sar Jhukta Hai
E--------5-6-5—3-3---1-0---
B----3---------------------------
G--------------------------------

Yaara Main Kyaaa kerun
E--------1-1----1-3-1----3-0--
B-------------------------------3-
G---3------------------------

Tujh Main Rab Dikhta Hai
E---------1----3-1—0—0--------
B---------------------------3-1-
G----2---------------------------

Yaara Main Kyaaa kerun
E--------1-1----1-3-1----3-0--
B-----------------------------3-
G---3------------------------



Do you like this post?


Search GUITAR CHORD WORLD

GCW Recommends

Top Chart