July 10, 2011

Obosh Onuvutir Deyal- Artcell

Song: Obosh Onuvutir Deyal
Band: Artcell
Album: Onno Somoy

Language: Bangla
Country: Bangladesh

(F#)Tomar jonno (B)prithibi aaj (D#m)niyeche (C#)biday
Tobu (F#)tomar (B)tukro (F#)chayay
Dube (F#)ache koto (B)mitthe agun (D#m)ondhokar(C#)moy
Koto (F#)smriti (B)koto (F#)shomoy

(B)Tomar jonno (D#m)prithibite (F#)aajke chutir (A#)rod
(B)Nijer majhe (F#)tomay (D#m)khoja
(B)Akash nile (C#)takie (F#)thaka

(F#)Tomar jonno (B)prithibi aaj (D#m)niyeche (C#)biday
(F#)Mehgachonno (B)basto (F#)Dhakai
guitarchordworld.net
(F#)Manush gulo (B)shunno chokhe (D#m)dukkho (C#)didhay
(F#)Akash (B)pane (F#)takai

(B)Tomar jonno (D#m)prithibite (F#)theme jai (A#)shomoy
(B)Amar dehe (F#)ratri (D#m)namay
(B)Mitthe agun (C#)ondhokar(F#)moy

(D#m)Bhirer majhe (F#)abar bhire
(D#m)Amar shorir (F#)meshe kolahole
guitarchordworld.net
(A#m)Dukkho bhule mishe (B)jai (C#)mukhosh (F#)srote
(D#m)Onek dure (F#)akla pothe
(D#m)Klanto ami firi (F#)tomar kache
(A#m)Mukhosh khule boshe (B)roi (C#)janla (F#)dhore

(B)Amar gaaner (D#m)shobdo (F#)shurer (A#)onto(D#m)rale
(B)Tomai aki (D#m)kanna (F#)chepe
(B)Mohakaler (D#m)klanto (F#)pothe

(F#)Tomar jonno (B)brishti jhore (D#m)amar (C#)lekhai
Alor (F#)moton (B)mitthe (F#)chayay
(F#)Pathor hoye (B)ghure more (D#m)amar (C#)hridoy
Koto (F#)smriti (B)koto mitthe (F#)bhoy

(B)Tomar jonno (D#m)golar bhetor (F#)atke thake (A#)krodh
(B)Amar chokhe (F#)smritir ghola (D#m)jol
Nir(B)jonotay (C#)tomar kola(F#)hol

(D#m)Tomar na (F#)thaka ostitto
(D#m)Roye gache (F#)amar nishshashe
(A#m)Fele asha ei (B)pothe dujo(C#)ne Ek(F#)shathe

(B)Amar obosh (D#m)onubhutir (F#)deyal jure (A#)koto (D#m)shomoy
Hete (B)eshe (F#)amra (D#m)dujon
(B)Hariechi poth (D#m)kothai (F#)kokhon

(F#)Amar (D#m)dehe khuje firi(F#)
Tomar onu(D#m)bhuti..(B)..(F#)
guitarchordworld.net
Tomar (D#m)chokher durer (F#)akash
Mishe (B)thake (D#m)Rupok (F#)hoye

(B)Tomar jonno (D#m)bishonno ak (F#)nithor ridoy (A#)amar (D#m)bhetor
(B)Darai (F#)shorob (D#m)aka
(B)Tomar prithibi (D#m)shorger (F#)moton
(B)Chiro (C#)o(F#)dekha
(B)Tomar prithibi (D#m)shorger (F#)moton
(B)Chiro (C#)o(F#)dekha

(F#)Tomar jonno (B)poth hari(D#m)ye (C#)ojanai
Tobu (F#)tomar (B)lekha (F#)kothay
Fere (F#)klanto (B)amar (D#m)olosh (C#)shomoy
Koto (F#)smriti (B)ondhokar(F#)moy

Intro:
e------------------------------------------------
b--3---3----3---3--------3----------3------------
G----0---0----0------------0---0------0---0------
D------------------0h2-0-----0----------0--------
A--2--------3------------------------------------
E--------------------------------3-3-------------

e------------------------------------------------
b--3---3----3---3--------3----------3------------
G----0---0----0------------0---0------0---0------
D------------------0h2-0-----0----------0--------
A--2--------3------------------------------------
E--------------------------------3-3-------------

e------------------------------------------------
b--3---3----3---3--------3----------3------------
G----0---0----0------------0---0------0---0------
D------------------0h2-0-----0----------0--------
A--2--------3------------------------------------
E--------------------------------3-3-------------

e------------------------------------------------
b--3---3----3---3--------3----------3------------
G----0---0----0------------0---0------0---0------
D------------------0h2-0-----0----------0--------
A--2--------3------------------------------------
E--------------------------------3-3-------------



Do you like this song?

Search GUITAR CHORD WORLD