January 18, 2010

Jao Naa Chords- What’s Your Rashee?

Song: Jao Naa
Movie: What’s Your Rashee?
Language: Hindi
Country: India

Strumming pattern : | D- D- | UUUD |

(Gm)Tum jo ho to ga rahi hai ye ha(F)wa
(Gm)Tum jo to reshmi si hai fi(F)za

jao (Cm)naaa…(Dm) jao na(Gm)… (Gm)
jao (Cm)naaa…(Dm) jao na(Gm)…

(Gm)Tum jo ho to ga rahi hai ye ha(F)wa
(Gm)Tum jo to reshmi si hai fi(F)za

jao (Cm)naaa...(Dm)
jao na(Gm)... (Gm)
(Cm)jao naaa...(Dm)
(Gm)jao na... (Gm)

(C)Phir na ye raat (A#)aayegi
(F)Phir na ye rut (Gm)jayegi
(C)Phir na yu mil(A#)na hoga
(F)Phir na jane (Gm)kya hoga

(Cm)jao naaa...(Dm)
(Gm)jao na... (Gm)
(Cm)jao naaa...(Dm)
(Gm)jao na... (Gm)

E ------------------------------------------
B ----------------------3-2-----------------
G ------0------2------2-----2-0---------0---
D --0-3----0-3----0-3---------------0-3-----
A --------------------------------3---------
E ------------------------------------------

(Gm)Ye raat thodi to dhalne do
(Cm)Dheere dheere isko pighalne do
(Gm)Aage hai do raha paana magar
(Cm)Thodi dur to saath chalne do

(Cm)Ye raat thodi to (Gm)dhalne do
(F)Dheere dheere isko pi(Gm)ghalne do
(Cm)Aage hai do raha (Gm)paana magar
(F)Thodi dur to saath (Gm)chalne to do

(C)Hone wali (A#)ho kal tum
(F)Ruk sako jo (Gm)do pal tum
(C)Kuch tumhari (A#)tasveerien
(F)Rakh lu apni (Gm)aankhon mein

(Cm)jao naaa...(Dm)
(Gm)jao na... (Gm)
(Cm)jao naaa...(Dm)
(Gm)jao na... (Gm)

Intro
E ------------------------------------------
B ----------------------3-2-----------------
G ------0------2------2-----2-0---------0---
D --0-3----0-3----0-3---------------0-3-----
A --------------------------------3---------
E ------------------------------------------



Do you like this post?

Search GUITAR CHORD WORLD

Top Chart