New Releases

August 28, 2009

MTV Splitsvilla Theme Song Tabs- Agnee

D: xx0232
Bm: 224432
Em7: 022030
F#m7: xx2222
Am: x02210
C: 032010
A: x02220

When voice starts after intro

[D Bm Em7 F#m7] X 2
[D Bm Em7 F#m7] X 2
[D Bm Em7 F#m7] X 2

Voice stops wid D major chord

Solo part:

E|--------------------------------------------------
A|-----------------------------------7-9----------
D|-----5h7----7-5-7--------------5-7-----4-5-sl-7(V)
G|---------5-5----7-----7-5-4h5p4-------------------
B|----------7-----7---------------------------------
E|--------------------------------------------------

After solo..

[Am D] X 3

[C G A] X 1

Back to normal

[D Bm Em7 F#m7] X 3

percussion stops here..only plucking

[D Bm Em7 F#m7]

Song ends with D major.

Intro Tab:

E|---------7------------------------------
A|5---------9----------7------8-------8---
D|-----------9----------9------10-----10--
G|--7---7-----7----------7-------8----8---
B|---7-7--------7---------8-8-----9---9---
E|----0-----------7(R)-----7-------8--8---


  • Facebook Comments
  • Item Reviewed: MTV Splitsvilla Theme Song Tabs- Agnee Description: Rating: 5 Reviewed By: Maidul Islam


    Scroll to Top