New Releases

December 16, 2008

Wish You Were Here Chords- Pink Floyd

Intro:
Three (3) times riff.
After first riff, supporting guitar playing
I don't have the other guitar solo. Too difficult for me.:)
Em - G - Em - G - Em - A - Em - A - G (covering whole riff)

1. Verse:
(C)So, so you think you can (D)tell?
(Am)Heaven from hell? Blue (G)skys from pain.
(D)Can you tell a green field, (C)from a cold steel rail
(Am)A smile from a vail? Do you (G)think you can tell.

2. Verse:
(G)And did they get you to (C)trade?
(D)Your heroes for ghosts. (Am)Hot ashes for trees.
(G)And hot air for a cool breeze.
(D)Cold comfort for change. (C)And did you exchange
(Am)A 'walk on part in the war', (G)for a lead role in the cage.

Interlude:
Riff 1 (one) time.

Chorus:
(C)How I wish, how I wish you were (D)here.
(Am)Were just two lost souls, swimming in a fish bowl.
(G)Year, after year. (D)Running over the same old ground.
(C)What have we found? The same old (Am)fears. Wish you were (G)here

Riff:
(v = hold)
E:----3------------------------------------------
A:--------(0-)2----------------------------------
D:----------------0-2vvvvvvvvvv--2------2--0----- x2
G:---------------------------------0-------------
B:-----------------------------------------------
e:-----------------------------------------------

E:----3------------------------------------------
A:--------(0-)2----------------------2--0vvvvvvvv
D:---------------0-2vvvvvvvvvv--2--0------------- x2
G:-----------------------------------------------
B:-----------------------------------------------
e:-----------------------------------------------

E:----------3--3vvvvvvvvv
A:----2--0---------------
D:----------------------- x1
G:-----------------------
B:-----------------------
e:-----------------------

  • Facebook Comments
  • Item Reviewed: Wish You Were Here Chords- Pink Floyd Description: Rating: 5 Reviewed By: Maidul Islam


    Scroll to Top