December 25, 2008

Chal Chale Chords- Woh Lamhe


Song: Chal Chale
Singer: James
Movie: Woh Lamhe
Music: Pritan
Language: Hindi
Country: India


(E)chal chale apane (Asus2)ghar ai (A)mere (E)hamsafar
E----------Asus2-------A-----------E
band darwaze kar sabse ho bekhabar
E----------Asus2-------A-----------E
pyar dono kare raat bhar tootkar
E----------Asus2-------E
chal chale apane ghar hamsafar - 2

E----------Asus2-------A-----------E
na jahaan bheed ho na jahaan bhar ke log
E----------Asus2-------A-----------E
na shehar mein base laakhon logon ka shor
E------------B--------Asus2-----E
chand lamhen tu inse mujhe durr kar
E----------Asus2-------E
chal chale apane ghar hamsafar - 2


E----------Asus2-------A-----------B
duriyaan dene ka jo bhi hai darmiyaan
E----------Asus2-------A-----------B
aaj kuchh aise mil ek ho jaaye jaan
E----------Asus2-------E-----------Asus2
bhar mujhe baahon mein le duba chaah mein
E----------Asus2
pyar kar tu bepanaha
E----------Asus2-------A-----------E
khatam raaton ke ho silsilay
E----------Asus2-------A-----------E
yun laga le mujhe aaj apane gale
E------------B--------Asus2-----E
durr har bandishen aaj mujhmein utar
E----------Asus2-------A-----------E
chal chale apane ghar hamsafar - 2

Tabs::

chal chale apane ghar ai mere hamsafar
G |---------------------------6-9-6---------------------------------
D |6-4-2------2-6-p9-----6-9--------9-------------------------------
A |-----------------------------------------------------------------
E |-----------------------------------------------------------------

band darwaze kar sabse ho bekhabar
G |-----------------------------------------------------------------
D |--2-4-6----6-9-4---6-4-2-----------------------------------------
A |-----------------------------------------------------------------
E |-----------------------------------------------------------------

pyar dono kare raat bhar tootkar
G |---------------------------6-9-6---------------------------------
D |6-4-2------2-6-p9-----6-9--------9-------------------------------------------------
A |-----------------------------------------------------------------
E |-----------------------------------------------------------------

chal chale apane ghar hamsafar - 2
G |---------------------------6-9-6---------------------------------
D |6-4-2------2-6-p9-----6-9--------9-------------------------------------------------
A |-----------------------------------------------------------------
E |-----------------------------------------------------------------



Do you like this song?

Search GUITAR CHORD WORLD