August 22, 2008

Ekhono Chords- Black

Em------Bm------C------D
Amar ai adhar,amar kobita

e ----77-5------------------
B --5-------7--7-5-8-7-3------

Em------Bm------C------D
Shomoyer patay Ja likhe choli

e ----77-5------------------
B --5-------7--7-5-8-7------

Em----Bm---C------D
Chilo shobi tomari

B--55-77-7-8-7-5-3------------

Em---Bm---C------D
ache ajo tomar

e----------------5-----------
B--55-77-7-8-7-8-------------

Em------Bm------C------D
Adharer nirjonotai

e---77-7s10-7-10-10s12--
B--5----------------------

Em------Bm------C------D
Ai nijhum rate eka ami ,

e--7-10-10s12-12-15-14-10-12-10-12--10

Em------Bm------C------D
janalar pashe dariye

e--7-10-10s12-12-15-14-10-12--

Em------Bm------C------D
chitkar kore bolte chai

e-12-12-15-14-10--12--10--12--10

Em------Bm------C
Tomai ami.........

e-7-10-10s12-15-14-10-12

Em------Bm-----------C------------G
Bhalobashi... shudhu tomai bhalobashi

e-7--7-8-7-5s10--7-10-10s12-10s12-10-8-7

Em-----Bm----------C-------------Em
ekhono... shudhu tomai bhalobashi

e-7--7-8-7-5s10--7-10-10s12-10s12-10-8-7

http://chordworld.blogspot.com

Do you like this post?

Search GUITAR CHORD WORLD

Top Chart